现在的位置: 首页Ukulele弹唱谱, Ukulele曲谱>正文
La Vie En Rose(玫瑰人生)|尤克里里ukulele谱(皮雅芙、小野丽莎)

2014年03月23日 Ukulele弹唱谱, Ukulele曲谱 暂无评论 ⁄ 被围观 36,087+

玫瑰人生

法国经典老民谣 La Vie En Rose(玫瑰人生),原唱艾迪特·皮雅芙,被无数人翻唱,小野丽莎翻唱的很不错,这次的春晚上也被刘欢和苏菲玛索演绎了。这首歌很适合ukulele来弹,下面就分享:

La Vie En Rose ukulele谱

La Vie En Rose 尤克里里谱

右手弹奏建议:

这首歌很安静,伴奏随意就行了,可以开始的时候简单的下拨,高潮的时候用folk rock扫弦节奏,具体参考视频吧。

《老爸老妈的浪漫史》ukulele弹奏La Vie En Rose片段参考,英语版:

帅哥网友在埃菲尔铁塔下演绎,法语版:

帅哥的和弦看了一下大概是,

前奏:C    Cmaj7   Am  Dm  G7   Dm  G7   Dm  G7

开始唱:C  Am  Dm  G7

副歌:C   Cmaj7   Am  Dm  G7  Dm  G7  C  Cmaj7   C  Cmaj7  Am  Dm  A  C  A  Dm  G7  大概就这顺序,不一定对,各位自己看视频对照吧,仅供参考。

下面是这首歌的一个简单指弹谱,虽然这个谱没有延音线等符号,各位将就练习一下吧。

La Vie En Rose
By:王叔叔
|----------------|----------------|2---------------|1-----------2---|
|1-0-----------0-|0-1-0-------0-1-|0---1-0---0-1---|0---------0-3---|
|0---2-0-0-0-2---|2-----2-1-2-----|2-------2-------|2-------2---2---|
|----------------|2---------------|0-0-----------0-|0-0-0-0-----0---|
U U U
|3-----2-0-----3-|2-----0-------2-|0-------------2-|0-------2-------|
|0-----------0---|0---------0-----|0-------0-------|1-------1-------|
|0---------------|0-----------0---|0---------0-0---|2-------2-------|
|0---------0-----|0-------0-------|0-----0---------|0-------0-------|
U
|5---------0---3-|2-----0-------3-|0-------------2-|0-------2-------|
|5-------7---1---|3---------1-----|1-------1-------|0-------1-------|
|5---------------|2-----------2---|0---------1-2---|0-------2-------|
|7-----5---------|0-------0-------|2-----0---------|0-------0-------|
U
|3-----2-0-----3-|2-----0-------2-|0---------------|3---------------|
|0-----------0---|0---------0-----|0-------0-------|1---------------|
|0---------------|0-----------0---|0---------0-0-0-|0---------------|
|0---------0-----|0-------0-------|0-----0---------|2---------------|
 U
|5---5-3-3-----3-|5---5-3---------|5---5-3-5---5-3-|5---5-3-7---7---|
|4-------4-------|0---------------|1-------0-------|1-------5---7---|
|5-------5-------|0---------------|2-------2-------|0-------5---7---|
|--------7---7---|0-------0-------|0-------0-------|0-------7---7---|
U U
|3-----2-0-----3-|2-----0-------2-|0-------2-------|0-------2-------|
|0-----------0---|0---------0-----|1-------3-------|1-------3-------|
|0---------------|0-----------0---|0-------4-------|0-------2-------|
|0---------0-----|0-------0-------|2-------0-------|2-------0-------|
U
|3---------------|
|0---------------|
|0---------------|
× 腾讯微博